ISO-10303-21;
HEADER;
FILE_DESCRIPTION((''),'2;1');
FILE_NAME('3D_1980020050004_CODE-M3_N_V1_0','2022-06-21T',('yp.zhu'),(''),
'PRO/ENGINEER BY PARAMETRIC TECHNOLOGY CORPORATION, 2012480',
'PRO/ENGINEER BY PARAMETRIC TECHNOLOGY CORPORATION, 2012480','');
FILE_SCHEMA(('CONFIG_CONTROL_DESIGN'));
ENDSEC;
DATA;
#1=CARTESIAN_POINT('',(2.5E0,-4.E-1,0.E0));
#2=DIRECTION('',(0.E0,1.E0,0.E0));
#3=DIRECTION('',(9.652830319691E-1,0.E0,2.612061794685E-1));
#4=AXIS2_PLACEMENT_3D('',#1,#2,#3);
#6=CARTESIAN_POINT('',(1.117896275330E1,-1.207293071070E-9,3.555631668205E-9));
#7=DIRECTION('',(1.E0,0.E0,0.E0));
#8=DIRECTION('',(0.E0,-1.679012343228E-1,9.858038220219E-1));
#9=AXIS2_PLACEMENT_3D('',#6,#7,#8);
#11=CARTESIAN_POINT('',(1.069679815331E1,-1.207293071070E-9,3.555631668205E-9));
#12=DIRECTION('',(-1.E0,0.E0,0.E0));
#13=DIRECTION('',(0.E0,-1.454545448388E-1,-9.893649353933E-1));
#14=AXIS2_PLACEMENT_3D('',#11,#12,#13);
#16=CARTESIAN_POINT('',(1.117896275044E1,-4.000000007908E-1,-2.348532634417E0));
#17=CARTESIAN_POINT('',(1.110285734599E1,-4.000000007908E-1,-2.407398126291E0));
#18=CARTESIAN_POINT('',(1.094638891172E1,-3.999999992053E-1,-2.528297511407E0));
#19=CARTESIAN_POINT('',(1.078141206387E1,-4.000000007985E-1,-2.655542546169E0));
#20=CARTESIAN_POINT('',(1.069679815304E1,-4.000000007985E-1,-2.720753571809E0));
#22=CARTESIAN_POINT('',(1.069679815558E1,-4.000000000379E-1,2.720753572340E0));
#23=CARTESIAN_POINT('',(1.078138950513E1,-4.000000000379E-1,2.655559934437E0));
#24=CARTESIAN_POINT('',(1.094634381543E1,-3.999999999588E-1,2.528332323908E0));
#25=CARTESIAN_POINT('',(1.110283481761E1,-4.000000000446E-1,2.407415553883E0));
#26=CARTESIAN_POINT('',(1.117896275293E1,-4.000000000446E-1,2.348532634991E0));
#28=DIRECTION('',(-1.E0,3.166464287444E-11,-2.153732089076E-10));
#29=VECTOR('',#28,1.196798155576E0);
#30=CARTESIAN_POINT('',(1.069679815558E1,-4.000000000379E-1,2.720753572340E0));
#31=LINE('',#30,#29);
#32=DIRECTION('',(0.E0,0.E0,1.E0));
#33=VECTOR('',#32,5.441507144165E0);
#34=CARTESIAN_POINT('',(9.5E0,-4.E-1,-2.720753572083E0));
#35=LINE('',#34,#33);
#36=DIRECTION('',(1.E0,-6.671908921173E-10,2.283252128656E-10));
#37=VECTOR('',#36,1.196798153044E0);
#38=CARTESIAN_POINT('',(9.5E0,-4.E-1,-2.720753572083E0));
#39=LINE('',#38,#37);
#40=DIRECTION('',(1.E0,0.E0,0.E0));
#41=VECTOR('',#40,1.18E1);
#42=CARTESIAN_POINT('',(-2.3E0,0.E0,-2.75E0));
#43=LINE('',#42,#41);
#44=CARTESIAN_POINT('',(9.5E0,0.E0,0.E0));
#45=DIRECTION('',(1.E0,0.E0,0.E0));
#46=DIRECTION('',(0.E0,0.E0,1.E0));
#47=AXIS2_PLACEMENT_3D('',#44,#45,#46);
#49=CARTESIAN_POINT('',(9.5E0,0.E0,0.E0));
#50=DIRECTION('',(1.E0,0.E0,0.E0));
#51=DIRECTION('',(0.E0,1.454545454545E-1,9.893649353027E-1));
#52=AXIS2_PLACEMENT_3D('',#49,#50,#51);
#54=DIRECTION('',(0.E0,0.E0,1.E0));
#55=VECTOR('',#54,5.441507144165E0);
#56=CARTESIAN_POINT('',(9.5E0,4.E-1,-2.720753572083E0));
#57=LINE('',#56,#55);
#58=CARTESIAN_POINT('',(9.5E0,0.E0,0.E0));
#59=DIRECTION('',(1.E0,0.E0,0.E0));
#60=DIRECTION('',(0.E0,0.E0,-1.E0));
#61=AXIS2_PLACEMENT_3D('',#58,#59,#60);
#63=CARTESIAN_POINT('',(9.5E0,0.E0,0.E0));
#64=DIRECTION('',(1.E0,0.E0,0.E0));
#65=DIRECTION('',(0.E0,-1.454545454545E-1,-9.893649353027E-1));
#66=AXIS2_PLACEMENT_3D('',#63,#64,#65);
#68=DIRECTION('',(-1.E0,-6.205423432213E-10,2.088721607357E-10));
#69=VECTOR('',#68,1.196798153206E0);
#70=CARTESIAN_POINT('',(1.069679815321E1,4.000000007427E-1,2.720753571833E0));
#71=LINE('',#70,#69);
#72=DIRECTION('',(1.E0,0.E0,0.E0));
#73=VECTOR('',#72,1.18E1);
#74=CARTESIAN_POINT('',(-2.3E0,0.E0,2.75E0));
#75=LINE('',#74,#73);
#76=DIRECTION('',(1.E0,2.926399524605E-11,-1.990567643664E-10));
#77=VECTOR('',#76,1.196798155561E0);
#78=CARTESIAN_POINT('',(9.5E0,4.E-1,-2.720753572083E0));
#79=LINE('',#78,#77);
#80=CARTESIAN_POINT('',(1.117896275326E1,1.130626758883E-9,-3.299312117876E-9));
#81=DIRECTION('',(1.E0,0.E0,0.E0));
#82=DIRECTION('',(0.E0,1.679012343362E-1,-9.858038220196E-1));
#83=AXIS2_PLACEMENT_3D('',#80,#81,#82);
#85=CARTESIAN_POINT('',(1.069679815346E1,1.130626758883E-9,-3.299312117876E-9));
#86=DIRECTION('',(-1.E0,0.E0,0.E0));
#87=DIRECTION('',(0.E0,1.454545448795E-1,9.893649353873E-1));
#88=AXIS2_PLACEMENT_3D('',#85,#86,#87);
#90=CARTESIAN_POINT('',(2.5E0,4.E-1,0.E0));
#91=DIRECTION('',(0.E0,-1.E0,0.E0));
#92=DIRECTION('',(9.652830319693E-1,0.E0,-2.612061794679E-1));
#93=AXIS2_PLACEMENT_3D('',#90,#91,#92);
#95=CARTESIAN_POINT('',(1.117896275060E1,4.000000007356E-1,2.348532634443E0));
#96=CARTESIAN_POINT('',(1.110285734956E1,4.000000007356E-1,2.407398123678E0));
#97=CARTESIAN_POINT('',(1.094638891845E1,3.999999992609E-1,2.528297506213E0));
#98=CARTESIAN_POINT('',(1.078141206745E1,4.000000007427E-1,2.655542543562E0));
#99=CARTESIAN_POINT('',(1.069679815321E1,4.000000007427E-1,2.720753571833E0));
#101=CARTESIAN_POINT('',(1.069679815556E1,4.000000000350E-1,-2.720753572321E0));
#102=CARTESIAN_POINT('',(1.078138950176E1,4.000000000350E-1,-2.655559937E0));
#103=CARTESIAN_POINT('',(1.094634380865E1,3.999999999618E-1,-2.528332328979E0));
#104=CARTESIAN_POINT('',(1.110283481425E1,4.000000000413E-1,-2.407415556452E0));
#105=CARTESIAN_POINT('',(1.117896275291E1,4.000000000413E-1,-2.348532634971E0));
#107=DIRECTION('',(-7.071067811866E-1,0.E0,7.071067811865E-1));
#108=VECTOR('',#107,2.828427124746E-1);
#109=CARTESIAN_POINT('',(-2.3E0,0.E0,-2.75E0));
#110=LINE('',#109,#108);
#111=CARTESIAN_POINT('',(-2.3E0,0.E0,0.E0));
#112=DIRECTION('',(-1.E0,0.E0,0.E0));
#113=DIRECTION('',(0.E0,0.E0,1.E0));
#114=AXIS2_PLACEMENT_3D('',#111,#112,#113);
#116=CARTESIAN_POINT('',(-2.5E0,0.E0,0.E0));
#117=DIRECTION('',(-1.E0,0.E0,0.E0));
#118=DIRECTION('',(0.E0,0.E0,-1.E0));
#119=AXIS2_PLACEMENT_3D('',#116,#117,#118);
#121=CARTESIAN_POINT('',(-2.5E0,0.E0,0.E0));
#122=DIRECTION('',(-1.E0,0.E0,0.E0));
#123=DIRECTION('',(0.E0,0.E0,1.E0));
#124=AXIS2_PLACEMENT_3D('',#121,#122,#123);
#126=CARTESIAN_POINT('',(-2.5E0,0.E0,0.E0));
#127=DIRECTION('',(1.E0,0.E0,0.E0));
#128=DIRECTION('',(0.E0,0.E0,-1.E0));
#129=AXIS2_PLACEMENT_3D('',#126,#127,#128);
#131=CARTESIAN_POINT('',(-2.5E0,0.E0,0.E0));
#132=DIRECTION('',(1.E0,0.E0,0.E0));
#133=DIRECTION('',(0.E0,0.E0,1.E0));
#134=AXIS2_PLACEMENT_3D('',#131,#132,#133);
#136=DIRECTION('',(-7.071067811866E-1,0.E0,-7.071067811865E-1));
#137=VECTOR('',#136,2.828427124746E-1);
#138=CARTESIAN_POINT('',(-2.3E0,0.E0,2.75E0));
#139=LINE('',#138,#137);
#140=CARTESIAN_POINT('',(-2.3E0,0.E0,0.E0));
#141=DIRECTION('',(-1.E0,0.E0,0.E0));
#142=DIRECTION('',(0.E0,0.E0,-1.E0));
#143=AXIS2_PLACEMENT_3D('',#140,#141,#142);
#145=DIRECTION('',(1.E0,0.E0,0.E0));
#146=VECTOR('',#145,4.E0);
#147=CARTESIAN_POINT('',(-6.5E0,0.E0,1.2E0));
#148=LINE('',#147,#146);
#149=DIRECTION('',(1.E0,0.E0,0.E0));
#150=VECTOR('',#149,4.E0);
#151=CARTESIAN_POINT('',(-6.5E0,0.E0,-1.2E0));
#152=LINE('',#151,#150);
#153=CARTESIAN_POINT('',(-6.5E0,0.E0,0.E0));
#154=DIRECTION('',(1.E0,0.E0,0.E0));
#155=DIRECTION('',(0.E0,0.E0,-1.E0));
#156=AXIS2_PLACEMENT_3D('',#153,#154,#155);
#158=CARTESIAN_POINT('',(-6.5E0,0.E0,0.E0));
#159=DIRECTION('',(1.E0,0.E0,0.E0));
#160=DIRECTION('',(0.E0,0.E0,1.E0));
#161=AXIS2_PLACEMENT_3D('',#158,#159,#160);
#163=CARTESIAN_POINT('',(-6.5E0,0.E0,0.E0));
#164=DIRECTION('',(-1.E0,0.E0,0.E0));
#165=DIRECTION('',(0.E0,0.E0,1.E0));
#166=AXIS2_PLACEMENT_3D('',#163,#164,#165);
#168=CARTESIAN_POINT('',(-6.5E0,0.E0,0.E0));
#169=DIRECTION('',(-1.E0,0.E0,0.E0));
#170=DIRECTION('',(0.E0,0.E0,-1.E0));
#171=AXIS2_PLACEMENT_3D('',#168,#169,#170);
#173=DIRECTION('',(1.E0,0.E0,0.E0));
#174=VECTOR('',#173,4.5E0);
#175=CARTESIAN_POINT('',(-1.1E1,0.E0,1.5E0));
#176=LINE('',#175,#174);
#177=DIRECTION('',(1.E0,0.E0,0.E0));
#178=VECTOR('',#177,4.5E0);
#179=CARTESIAN_POINT('',(-1.1E1,0.E0,-1.5E0));
#180=LINE('',#179,#178);
#181=DIRECTION('',(-7.071067811865E-1,0.E0,-7.071067811865E-1));
#182=VECTOR('',#181,7.071067811866E-1);
#183=CARTESIAN_POINT('',(-1.1E1,0.E0,1.5E0));
#184=LINE('',#183,#182);
#185=CARTESIAN_POINT('',(-1.1E1,0.E0,0.E0));
#186=DIRECTION('',(-1.E0,0.E0,0.E0));
#187=DIRECTION('',(0.E0,0.E0,-1.E0));
#188=AXIS2_PLACEMENT_3D('',#185,#186,#187);
#190=DIRECTION('',(-7.071067811865E-1,0.E0,7.071067811865E-1));
#191=VECTOR('',#190,7.071067811866E-1);
#192=CARTESIAN_POINT('',(-1.1E1,0.E0,-1.5E0));
#193=LINE('',#192,#191);
#194=CARTESIAN_POINT('',(-1.1E1,0.E0,0.E0));
#195=DIRECTION('',(-1.E0,0.E0,0.E0));
#196=DIRECTION('',(0.E0,0.E0,1.E0));
#197=AXIS2_PLACEMENT_3D('',#194,#195,#196);
#199=CARTESIAN_POINT('',(-1.15E1,0.E0,0.E0));
#200=DIRECTION('',(-1.E0,0.E0,0.E0));
#201=DIRECTION('',(0.E0,0.E0,-1.E0));
#202=AXIS2_PLACEMENT_3D('',#199,#200,#201);
#204=CARTESIAN_POINT('',(-1.15E1,0.E0,0.E0));
#205=DIRECTION('',(-1.E0,0.E0,0.E0));
#206=DIRECTION('',(0.E0,0.E0,1.E0));
#207=AXIS2_PLACEMENT_3D('',#204,#205,#206);
#209=CARTESIAN_POINT('',(-1.15E1,0.E0,1.E0));
#210=CARTESIAN_POINT('',(-1.15E1,0.E0,-1.E0));
#211=VERTEX_POINT('',#209);
#212=VERTEX_POINT('',#210);
#213=CARTESIAN_POINT('',(-1.1E1,0.E0,-1.5E0));
#214=VERTEX_POINT('',#213);
#215=CARTESIAN_POINT('',(-1.1E1,0.E0,1.5E0));
#216=VERTEX_POINT('',#215);
#217=CARTESIAN_POINT('',(-2.3E0,0.E0,-2.75E0));
#218=CARTESIAN_POINT('',(-2.5E0,0.E0,-2.55E0));
#219=VERTEX_POINT('',#217);
#220=VERTEX_POINT('',#218);
#221=CARTESIAN_POINT('',(-2.3E0,0.E0,2.75E0));
#222=VERTEX_POINT('',#221);
#223=CARTESIAN_POINT('',(-6.5E0,0.E0,-1.5E0));
#224=CARTESIAN_POINT('',(-6.5E0,0.E0,1.5E0));
#225=VERTEX_POINT('',#223);
#226=VERTEX_POINT('',#224);
#227=CARTESIAN_POINT('',(-2.5E0,0.E0,2.55E0));
#228=VERTEX_POINT('',#227);
#229=CARTESIAN_POINT('',(-6.5E0,0.E0,-1.2E0));
#230=CARTESIAN_POINT('',(-2.5E0,0.E0,-1.2E0));
#231=VERTEX_POINT('',#229);
#232=VERTEX_POINT('',#230);
#233=CARTESIAN_POINT('',(-6.5E0,0.E0,1.2E0));
#234=CARTESIAN_POINT('',(-2.5E0,0.E0,1.2E0));
#235=VERTEX_POINT('',#233);
#236=VERTEX_POINT('',#234);
#237=CARTESIAN_POINT('',(9.5E0,0.E0,2.75E0));
#238=VERTEX_POINT('',#237);
#239=CARTESIAN_POINT('',(9.5E0,0.E0,-2.75E0));
#240=VERTEX_POINT('',#239);
#241=CARTESIAN_POINT('',(9.5E0,4.E-1,2.720753572083E0));
#242=VERTEX_POINT('',#241);
#243=CARTESIAN_POINT('',(9.5E0,4.E-1,-2.720753572083E0));
#244=VERTEX_POINT('',#243);
#245=CARTESIAN_POINT('',(9.5E0,-4.E-1,-2.720753572083E0));
#246=CARTESIAN_POINT('',(9.5E0,-4.E-1,2.720753572083E0));
#247=VERTEX_POINT('',#245);
#248=VERTEX_POINT('',#246);
#249=VERTEX_POINT('',#95);
#250=VERTEX_POINT('',#99);
#251=VERTEX_POINT('',#101);
#252=VERTEX_POINT('',#105);
#253=VERTEX_POINT('',#16);
#254=VERTEX_POINT('',#20);
#255=VERTEX_POINT('',#22);
#256=VERTEX_POINT('',#26);
#257=CARTESIAN_POINT('',(2.5E0,0.E0,0.E0));
#258=DIRECTION('',(0.E0,0.E0,-1.E0));
#259=DIRECTION('',(0.E0,1.E0,0.E0));
#260=AXIS2_PLACEMENT_3D('',#257,#258,#259);
#261=SPHERICAL_SURFACE('',#260,9.E0);
#263=ORIENTED_EDGE('',*,*,#262,.F.);
#265=ORIENTED_EDGE('',*,*,#264,.T.);
#266=EDGE_LOOP('',(#263,#265));
#267=FACE_OUTER_BOUND('',#266,.F.);
#268=ADVANCED_FACE('',(#267),#261,.T.);
#269=CARTESIAN_POINT('',(1.093788045183E1,-1.207293071070E-9,
3.555631668205E-9));
#270=DIRECTION('',(-1.E0,0.E0,0.E0));
#271=DIRECTION('',(0.E0,0.E0,-1.E0));
#272=AXIS2_PLACEMENT_3D('',#269,#270,#271);
#273=CONICAL_SURFACE('',#272,2.566176469824E0,3.732526149289E1);
#274=ORIENTED_EDGE('',*,*,#262,.T.);
#276=ORIENTED_EDGE('',*,*,#275,.T.);
#278=ORIENTED_EDGE('',*,*,#277,.T.);
#280=ORIENTED_EDGE('',*,*,#279,.T.);
#281=EDGE_LOOP('',(#274,#276,#278,#280));
#282=FACE_OUTER_BOUND('',#281,.F.);
#283=ADVANCED_FACE('',(#282),#273,.T.);
#284=CARTESIAN_POINT('',(9.5E0,-4.E-1,2.751E0));
#285=DIRECTION('',(0.E0,1.E0,0.E0));
#286=DIRECTION('',(-1.E0,0.E0,0.E0));
#287=AXIS2_PLACEMENT_3D('',#284,#285,#286);
#288=PLANE('',#287);
#289=ORIENTED_EDGE('',*,*,#275,.F.);
#290=ORIENTED_EDGE('',*,*,#264,.F.);
#291=ORIENTED_EDGE('',*,*,#279,.F.);
#293=ORIENTED_EDGE('',*,*,#292,.T.);
#295=ORIENTED_EDGE('',*,*,#294,.F.);
#297=ORIENTED_EDGE('',*,*,#296,.T.);
#298=EDGE_LOOP('',(#289,#290,#291,#293,#295,#297));
#299=FACE_OUTER_BOUND('',#298,.F.);
#300=ADVANCED_FACE('',(#299),#288,.T.);
#301=CARTESIAN_POINT('',(-4.594943680716E1,0.E0,0.E0));
#302=DIRECTION('',(-1.E0,0.E0,0.E0));
#303=DIRECTION('',(0.E0,0.E0,1.E0));
#304=AXIS2_PLACEMENT_3D('',#301,#302,#303);
#305=CYLINDRICAL_SURFACE('',#304,2.75E0);
#306=ORIENTED_EDGE('',*,*,#277,.F.);
#307=ORIENTED_EDGE('',*,*,#296,.F.);
#309=ORIENTED_EDGE('',*,*,#308,.T.);
#311=ORIENTED_EDGE('',*,*,#310,.F.);
#313=ORIENTED_EDGE('',*,*,#312,.T.);
#315=ORIENTED_EDGE('',*,*,#314,.T.);
#317=ORIENTED_EDGE('',*,*,#316,.T.);
#318=ORIENTED_EDGE('',*,*,#292,.F.);
#319=EDGE_LOOP('',(#306,#307,#309,#311,#313,#315,#317,#318));
#320=FACE_OUTER_BOUND('',#319,.F.);
#321=ADVANCED_FACE('',(#320),#305,.T.);
#322=CARTESIAN_POINT('',(9.5E0,6.5E-1,2.751E0));
#323=DIRECTION('',(1.E0,0.E0,0.E0));
#324=DIRECTION('',(0.E0,0.E0,-1.E0));
#325=AXIS2_PLACEMENT_3D('',#322,#323,#324);
#326=PLANE('',#325);
#327=ORIENTED_EDGE('',*,*,#294,.T.);
#328=ORIENTED_EDGE('',*,*,#316,.F.);
#330=ORIENTED_EDGE('',*,*,#329,.F.);
#332=ORIENTED_EDGE('',*,*,#331,.F.);
#334=ORIENTED_EDGE('',*,*,#333,.F.);
#335=ORIENTED_EDGE('',*,*,#308,.F.);
#336=EDGE_LOOP('',(#327,#328,#330,#332,#334,#335));
#337=FACE_OUTER_BOUND('',#336,.F.);
#338=ADVANCED_FACE('',(#337),#326,.T.);
#339=CARTESIAN_POINT('',(-4.594943680716E1,0.E0,0.E0));
#340=DIRECTION('',(-1.E0,0.E0,0.E0));
#341=DIRECTION('',(0.E0,0.E0,1.E0));
#342=AXIS2_PLACEMENT_3D('',#339,#340,#341);
#343=CYLINDRICAL_SURFACE('',#342,2.75E0);
#345=ORIENTED_EDGE('',*,*,#344,.F.);
#347=ORIENTED_EDGE('',*,*,#346,.T.);
#348=ORIENTED_EDGE('',*,*,#329,.T.);
#349=ORIENTED_EDGE('',*,*,#314,.F.);
#351=ORIENTED_EDGE('',*,*,#350,.T.);
#352=ORIENTED_EDGE('',*,*,#310,.T.);
#353=ORIENTED_EDGE('',*,*,#333,.T.);
#355=ORIENTED_EDGE('',*,*,#354,.T.);
#356=EDGE_LOOP('',(#345,#347,#348,#349,#351,#352,#353,#355));
#357=FACE_OUTER_BOUND('',#356,.F.);
#358=ADVANCED_FACE('',(#357),#343,.T.);
#359=CARTESIAN_POINT('',(1.093788045199E1,1.130626758883E-9,
-3.299312117876E-9));
#360=DIRECTION('',(-1.E0,0.E0,0.E0));
#361=DIRECTION('',(0.E0,0.E0,-1.E0));
#362=AXIS2_PLACEMENT_3D('',#359,#360,#361);
#363=CONICAL_SURFACE('',#362,2.566176469876E0,3.732526149256E1);
#365=ORIENTED_EDGE('',*,*,#364,.T.);
#367=ORIENTED_EDGE('',*,*,#366,.T.);
#368=ORIENTED_EDGE('',*,*,#344,.T.);
#370=ORIENTED_EDGE('',*,*,#369,.T.);
#371=EDGE_LOOP('',(#365,#367,#368,#370));
#372=FACE_OUTER_BOUND('',#371,.F.);
#373=ADVANCED_FACE('',(#372),#363,.T.);
#374=CARTESIAN_POINT('',(2.5E0,0.E0,0.E0));
#375=DIRECTION('',(0.E0,0.E0,-1.E0));
#376=DIRECTION('',(0.E0,1.E0,0.E0));
#377=AXIS2_PLACEMENT_3D('',#374,#375,#376);
#378=SPHERICAL_SURFACE('',#377,9.E0);
#379=ORIENTED_EDGE('',*,*,#364,.F.);
#381=ORIENTED_EDGE('',*,*,#380,.T.);
#382=EDGE_LOOP('',(#379,#381));
#383=FACE_OUTER_BOUND('',#382,.F.);
#384=ADVANCED_FACE('',(#383),#378,.T.);
#385=CARTESIAN_POINT('',(9.5E0,4.E-1,2.751E0));
#386=DIRECTION('',(0.E0,-1.E0,0.E0));
#387=DIRECTION('',(1.E0,0.E0,0.E0));
#388=AXIS2_PLACEMENT_3D('',#385,#386,#387);
#389=PLANE('',#388);
#390=ORIENTED_EDGE('',*,*,#366,.F.);
#391=ORIENTED_EDGE('',*,*,#380,.F.);
#392=ORIENTED_EDGE('',*,*,#369,.F.);
#393=ORIENTED_EDGE('',*,*,#354,.F.);
#394=ORIENTED_EDGE('',*,*,#331,.T.);
#395=ORIENTED_EDGE('',*,*,#346,.F.);
#396=EDGE_LOOP('',(#390,#391,#392,#393,#394,#395));
#397=FACE_OUTER_BOUND('',#396,.F.);
#398=ADVANCED_FACE('',(#397),#389,.T.);
#399=CARTESIAN_POINT('',(-2.4E0,0.E0,0.E0));
#400=DIRECTION('',(1.E0,0.E0,0.E0));
#401=DIRECTION('',(0.E0,0.E0,-1.E0));
#402=AXIS2_PLACEMENT_3D('',#399,#400,#401);
#403=CONICAL_SURFACE('',#402,2.65E0,4.5E1);
#405=ORIENTED_EDGE('',*,*,#404,.T.);
#407=ORIENTED_EDGE('',*,*,#406,.F.);
#408=ORIENTED_EDGE('',*,*,#350,.F.);
#410=ORIENTED_EDGE('',*,*,#409,.T.);
#411=EDGE_LOOP('',(#405,#407,#408,#410));
#412=FACE_OUTER_BOUND('',#411,.F.);
#413=ADVANCED_FACE('',(#412),#403,.T.);
#414=CARTESIAN_POINT('',(-2.5E0,1.2E0,0.E0));
#415=DIRECTION('',(1.E0,0.E0,0.E0));
#416=DIRECTION('',(0.E0,0.E0,-1.E0));
#417=AXIS2_PLACEMENT_3D('',#414,#415,#416);
#418=PLANE('',#417);
#420=ORIENTED_EDGE('',*,*,#419,.F.);
#421=ORIENTED_EDGE('',*,*,#404,.F.);
#422=EDGE_LOOP('',(#420,#421));
#423=FACE_OUTER_BOUND('',#422,.F.);
#425=ORIENTED_EDGE('',*,*,#424,.F.);
#427=ORIENTED_EDGE('',*,*,#426,.F.);
#428=EDGE_LOOP('',(#425,#427));
#429=FACE_BOUND('',#428,.F.);
#430=ADVANCED_FACE('',(#423,#429),#418,.F.);
#431=CARTESIAN_POINT('',(-2.4E0,0.E0,0.E0));
#432=DIRECTION('',(1.E0,0.E0,0.E0));
#433=DIRECTION('',(0.E0,0.E0,-1.E0));
#434=AXIS2_PLACEMENT_3D('',#431,#432,#433);
#435=CONICAL_SURFACE('',#434,2.65E0,4.5E1);
#436=ORIENTED_EDGE('',*,*,#409,.F.);
#437=ORIENTED_EDGE('',*,*,#312,.F.);
#438=ORIENTED_EDGE('',*,*,#406,.T.);
#439=ORIENTED_EDGE('',*,*,#419,.T.);
#440=EDGE_LOOP('',(#436,#437,#438,#439));
#441=FACE_OUTER_BOUND('',#440,.F.);
#442=ADVANCED_FACE('',(#441),#435,.T.);
#443=CARTESIAN_POINT('',(-4.594943680716E1,0.E0,0.E0));
#444=DIRECTION('',(-1.E0,0.E0,0.E0));
#445=DIRECTION('',(0.E0,0.E0,1.E0));
#446=AXIS2_PLACEMENT_3D('',#443,#444,#445);
#447=CYLINDRICAL_SURFACE('',#446,1.2E0);
#448=ORIENTED_EDGE('',*,*,#424,.T.);
#450=ORIENTED_EDGE('',*,*,#449,.F.);
#452=ORIENTED_EDGE('',*,*,#451,.T.);
#454=ORIENTED_EDGE('',*,*,#453,.T.);
#455=EDGE_LOOP('',(#448,#450,#452,#454));
#456=FACE_OUTER_BOUND('',#455,.F.);
#457=ADVANCED_FACE('',(#456),#447,.T.);
#458=CARTESIAN_POINT('',(-4.594943680716E1,0.E0,0.E0));
#459=DIRECTION('',(-1.E0,0.E0,0.E0));
#460=DIRECTION('',(0.E0,0.E0,1.E0));
#461=AXIS2_PLACEMENT_3D('',#458,#459,#460);
#462=CYLINDRICAL_SURFACE('',#461,1.2E0);
#463=ORIENTED_EDGE('',*,*,#453,.F.);
#465=ORIENTED_EDGE('',*,*,#464,.T.);
#466=ORIENTED_EDGE('',*,*,#449,.T.);
#467=ORIENTED_EDGE('',*,*,#426,.T.);
#468=EDGE_LOOP('',(#463,#465,#466,#467));
#469=FACE_OUTER_BOUND('',#468,.F.);
#470=ADVANCED_FACE('',(#469),#462,.T.);
#471=CARTESIAN_POINT('',(-6.5E0,1.5E0,0.E0));
#472=DIRECTION('',(-1.E0,0.E0,0.E0));
#473=DIRECTION('',(0.E0,0.E0,1.E0));
#474=AXIS2_PLACEMENT_3D('',#471,#472,#473);
#475=PLANE('',#474);
#477=ORIENTED_EDGE('',*,*,#476,.F.);
#479=ORIENTED_EDGE('',*,*,#478,.F.);
#480=EDGE_LOOP('',(#477,#479));
#481=FACE_OUTER_BOUND('',#480,.F.);
#482=ORIENTED_EDGE('',*,*,#451,.F.);
#483=ORIENTED_EDGE('',*,*,#464,.F.);
#484=EDGE_LOOP('',(#482,#483));
#485=FACE_BOUND('',#484,.F.);
#486=ADVANCED_FACE('',(#481,#485),#475,.F.);
#487=CARTESIAN_POINT('',(-4.594943680716E1,0.E0,0.E0));
#488=DIRECTION('',(-1.E0,0.E0,0.E0));
#489=DIRECTION('',(0.E0,0.E0,1.E0));
#490=AXIS2_PLACEMENT_3D('',#487,#488,#489);
#491=CYLINDRICAL_SURFACE('',#490,1.5E0);
#492=ORIENTED_EDGE('',*,*,#476,.T.);
#494=ORIENTED_EDGE('',*,*,#493,.F.);
#496=ORIENTED_EDGE('',*,*,#495,.T.);
#498=ORIENTED_EDGE('',*,*,#497,.T.);
#499=EDGE_LOOP('',(#492,#494,#496,#498));
#500=FACE_OUTER_BOUND('',#499,.F.);
#501=ADVANCED_FACE('',(#500),#491,.T.);
#502=CARTESIAN_POINT('',(-4.594943680716E1,0.E0,0.E0));
#503=DIRECTION('',(-1.E0,0.E0,0.E0));
#504=DIRECTION('',(0.E0,0.E0,1.E0));
#505=AXIS2_PLACEMENT_3D('',#502,#503,#504);
#506=CYLINDRICAL_SURFACE('',#505,1.5E0);
#507=ORIENTED_EDGE('',*,*,#497,.F.);
#509=ORIENTED_EDGE('',*,*,#508,.T.);
#510=ORIENTED_EDGE('',*,*,#493,.T.);
#511=ORIENTED_EDGE('',*,*,#478,.T.);
#512=EDGE_LOOP('',(#507,#509,#510,#511));
#513=FACE_OUTER_BOUND('',#512,.F.);
#514=ADVANCED_FACE('',(#513),#506,.T.);
#515=CARTESIAN_POINT('',(-1.125E1,0.E0,0.E0));
#516=DIRECTION('',(1.E0,0.E0,0.E0));
#517=DIRECTION('',(0.E0,0.E0,-1.E0));
#518=AXIS2_PLACEMENT_3D('',#515,#516,#517);
#519=CONICAL_SURFACE('',#518,1.25E0,4.5E1);
#521=ORIENTED_EDGE('',*,*,#520,.F.);
#522=ORIENTED_EDGE('',*,*,#508,.F.);
#524=ORIENTED_EDGE('',*,*,#523,.T.);
#526=ORIENTED_EDGE('',*,*,#525,.T.);
#527=EDGE_LOOP('',(#521,#522,#524,#526));
#528=FACE_OUTER_BOUND('',#527,.F.);
#529=ADVANCED_FACE('',(#528),#519,.T.);
#530=CARTESIAN_POINT('',(-1.125E1,0.E0,0.E0));
#531=DIRECTION('',(1.E0,0.E0,0.E0));
#532=DIRECTION('',(0.E0,0.E0,-1.E0));
#533=AXIS2_PLACEMENT_3D('',#530,#531,#532);
#534=CONICAL_SURFACE('',#533,1.25E0,4.5E1);
#536=ORIENTED_EDGE('',*,*,#535,.T.);
#537=ORIENTED_EDGE('',*,*,#523,.F.);
#538=ORIENTED_EDGE('',*,*,#495,.F.);
#539=ORIENTED_EDGE('',*,*,#520,.T.);
#540=EDGE_LOOP('',(#536,#537,#538,#539));
#541=FACE_OUTER_BOUND('',#540,.F.);
#542=ADVANCED_FACE('',(#541),#534,.T.);
#543=CARTESIAN_POINT('',(-1.15E1,0.E0,0.E0));
#544=DIRECTION('',(1.E0,0.E0,0.E0));
#545=DIRECTION('',(0.E0,0.E0,-1.E0));
#546=AXIS2_PLACEMENT_3D('',#543,#544,#545);
#547=PLANE('',#546);
#548=ORIENTED_EDGE('',*,*,#525,.F.);
#549=ORIENTED_EDGE('',*,*,#535,.F.);
#550=EDGE_LOOP('',(#548,#549));
#551=FACE_OUTER_BOUND('',#550,.F.);
#552=ADVANCED_FACE('',(#551),#547,.F.);
#553=CLOSED_SHELL('',(#268,#283,#300,#321,#338,#358,#373,#384,#398,#413,#430,
#442,#457,#470,#486,#501,#514,#529,#542,#552));
#554=MANIFOLD_SOLID_BREP('',#553);
#556=DIMENSIONAL_EXPONENTS(0.E0,0.E0,0.E0,0.E0,0.E0,0.E0,0.E0);
#558=PLANE_ANGLE_MEASURE_WITH_UNIT(PLANE_ANGLE_MEASURE(1.745329251994E-2),#557);
#559=(CONVERSION_BASED_UNIT('DEGREE',#558)NAMED_UNIT(*)PLANE_ANGLE_UNIT());
#561=UNCERTAINTY_MEASURE_WITH_UNIT(LENGTH_MEASURE(2.427203822312E-3),#555,
'closure',
'Maximum model space distance between geometric entities at asserted connectivities');
#562=(GEOMETRIC_REPRESENTATION_CONTEXT(3)GLOBAL_UNCERTAINTY_ASSIGNED_CONTEXT((
#561))GLOBAL_UNIT_ASSIGNED_CONTEXT((#555,#559,#560))REPRESENTATION_CONTEXT
('ID1','3'));
#564=APPLICATION_CONTEXT(
'CONFIGURATION CONTROLLED 3D DESIGNS OF MECHANICAL PARTS AND ASSEMBLIES');
#565=APPLICATION_PROTOCOL_DEFINITION('international standard',
'config_control_design',1994,#564);
#566=DESIGN_CONTEXT('',#564,'design');
#567=MECHANICAL_CONTEXT('',#564,'mechanical');
#568=PRODUCT('3D_1980020050004_CODE-M3_N_V1_0',
'3D_1980020050004_CODE-M3_N_V1_0','NOT SPECIFIED',(#567));
#569=PRODUCT_DEFINITION_FORMATION_WITH_SPECIFIED_SOURCE('1','LAST_VERSION',#568,
.MADE.);
#573=PRODUCT_CATEGORY('part','');
#574=PRODUCT_RELATED_PRODUCT_CATEGORY('detail','',(#568));
#575=PRODUCT_CATEGORY_RELATIONSHIP('','',#573,#574);
#576=SECURITY_CLASSIFICATION_LEVEL('unclassified');
#577=SECURITY_CLASSIFICATION('','',#576);
#578=CC_DESIGN_SECURITY_CLASSIFICATION(#577,(#569));
#579=APPROVAL_STATUS('approved');
#580=APPROVAL(#579,'');
#581=CC_DESIGN_APPROVAL(#580,(#577,#569,#570));
#582=CALENDAR_DATE(122,21,6);
#583=COORDINATED_UNIVERSAL_TIME_OFFSET(8,0,.AHEAD.);
#584=LOCAL_TIME(9,29,5.3E1,#583);
#585=DATE_AND_TIME(#582,#584);
#586=APPROVAL_DATE_TIME(#585,#580);
#587=DATE_TIME_ROLE('creation_date');
#588=CC_DESIGN_DATE_AND_TIME_ASSIGNMENT(#585,#587,(#570));
#589=DATE_TIME_ROLE('classification_date');
#590=CC_DESIGN_DATE_AND_TIME_ASSIGNMENT(#585,#589,(#577));
#591=PERSON('UNSPECIFIED','UNSPECIFIED',$,$,$,$);
#592=ORGANIZATION('UNSPECIFIED','UNSPECIFIED','UNSPECIFIED');
#593=PERSON_AND_ORGANIZATION(#591,#592);
#594=APPROVAL_ROLE('approver');
#595=APPROVAL_PERSON_ORGANIZATION(#593,#580,#594);
#596=PERSON_AND_ORGANIZATION_ROLE('creator');
#597=CC_DESIGN_PERSON_AND_ORGANIZATION_ASSIGNMENT(#593,#596,(#569,#570));
#598=PERSON_AND_ORGANIZATION_ROLE('design_supplier');
#599=CC_DESIGN_PERSON_AND_ORGANIZATION_ASSIGNMENT(#593,#598,(#569));
#600=PERSON_AND_ORGANIZATION_ROLE('classification_officer');
#601=CC_DESIGN_PERSON_AND_ORGANIZATION_ASSIGNMENT(#593,#600,(#577));
#602=PERSON_AND_ORGANIZATION_ROLE('design_owner');
#603=CC_DESIGN_PERSON_AND_ORGANIZATION_ASSIGNMENT(#593,#602,(#568));
#5=CIRCLE('',#4,8.991106717196E0);
#10=CIRCLE('',#9,2.382352938281E0);
#15=CIRCLE('',#14,2.749999999120E0);
#21=B_SPLINE_CURVE_WITH_KNOTS('',3,(#16,#17,#18,#19,#20),.UNSPECIFIED.,.F.,.F.,(
4,1,4),(0.E0,5.E-1,1.E0),.UNSPECIFIED.);
#27=B_SPLINE_CURVE_WITH_KNOTS('',3,(#22,#23,#24,#25,#26),.UNSPECIFIED.,.F.,.F.,(
4,1,4),(0.E0,5.E-1,1.E0),.UNSPECIFIED.);
#48=CIRCLE('',#47,2.75E0);
#53=CIRCLE('',#52,2.75E0);
#62=CIRCLE('',#61,2.75E0);
#67=CIRCLE('',#66,2.75E0);
#84=CIRCLE('',#83,2.382352938488E0);
#89=CIRCLE('',#88,2.749999999176E0);
#94=CIRCLE('',#93,8.991106717196E0);
#100=B_SPLINE_CURVE_WITH_KNOTS('',3,(#95,#96,#97,#98,#99),.UNSPECIFIED.,.F.,.F.,
(4,1,4),(0.E0,5.E-1,1.E0),.UNSPECIFIED.);
#106=B_SPLINE_CURVE_WITH_KNOTS('',3,(#101,#102,#103,#104,#105),.UNSPECIFIED.,
.F.,.F.,(4,1,4),(0.E0,5.E-1,1.E0),.UNSPECIFIED.);
#115=CIRCLE('',#114,2.75E0);
#120=CIRCLE('',#119,2.55E0);
#125=CIRCLE('',#124,2.55E0);
#130=CIRCLE('',#129,1.2E0);
#135=CIRCLE('',#134,1.2E0);
#144=CIRCLE('',#143,2.75E0);
#157=CIRCLE('',#156,1.5E0);
#162=CIRCLE('',#161,1.5E0);
#167=CIRCLE('',#166,1.2E0);
#172=CIRCLE('',#171,1.2E0);
#189=CIRCLE('',#188,1.5E0);
#198=CIRCLE('',#197,1.5E0);
#203=CIRCLE('',#202,1.E0);
#208=CIRCLE('',#207,1.E0);
#262=EDGE_CURVE('',#256,#253,#10,.T.);
#264=EDGE_CURVE('',#256,#253,#5,.T.);
#275=EDGE_CURVE('',#253,#254,#21,.T.);
#277=EDGE_CURVE('',#254,#255,#15,.T.);
#279=EDGE_CURVE('',#255,#256,#27,.T.);
#292=EDGE_CURVE('',#255,#248,#31,.T.);
#294=EDGE_CURVE('',#247,#248,#35,.T.);
#296=EDGE_CURVE('',#247,#254,#39,.T.);
#308=EDGE_CURVE('',#247,#240,#67,.T.);
#310=EDGE_CURVE('',#219,#240,#43,.T.);
#312=EDGE_CURVE('',#219,#222,#144,.T.);
#314=EDGE_CURVE('',#222,#238,#75,.T.);
#316=EDGE_CURVE('',#238,#248,#48,.T.);
#329=EDGE_CURVE('',#242,#238,#53,.T.);
#331=EDGE_CURVE('',#244,#242,#57,.T.);
#333=EDGE_CURVE('',#240,#244,#62,.T.);
#344=EDGE_CURVE('',#250,#251,#89,.T.);
#346=EDGE_CURVE('',#250,#242,#71,.T.);
#350=EDGE_CURVE('',#222,#219,#115,.T.);
#354=EDGE_CURVE('',#244,#251,#79,.T.);
#364=EDGE_CURVE('',#252,#249,#84,.T.);
#366=EDGE_CURVE('',#249,#250,#100,.T.);
#369=EDGE_CURVE('',#251,#252,#106,.T.);
#380=EDGE_CURVE('',#252,#249,#94,.T.);
#404=EDGE_CURVE('',#228,#220,#125,.T.);
#406=EDGE_CURVE('',#219,#220,#110,.T.);
#409=EDGE_CURVE('',#222,#228,#139,.T.);
#419=EDGE_CURVE('',#220,#228,#120,.T.);
#424=EDGE_CURVE('',#232,#236,#130,.T.);
#426=EDGE_CURVE('',#236,#232,#135,.T.);
#449=EDGE_CURVE('',#235,#236,#148,.T.);
#451=EDGE_CURVE('',#235,#231,#167,.T.);
#453=EDGE_CURVE('',#231,#232,#152,.T.);
#464=EDGE_CURVE('',#231,#235,#172,.T.);
#476=EDGE_CURVE('',#225,#226,#157,.T.);
#478=EDGE_CURVE('',#226,#225,#162,.T.);
#493=EDGE_CURVE('',#216,#226,#176,.T.);
#495=EDGE_CURVE('',#216,#214,#198,.T.);
#497=EDGE_CURVE('',#214,#225,#180,.T.);
#508=EDGE_CURVE('',#214,#216,#189,.T.);
#520=EDGE_CURVE('',#216,#211,#184,.T.);
#523=EDGE_CURVE('',#214,#212,#193,.T.);
#525=EDGE_CURVE('',#212,#211,#203,.T.);
#535=EDGE_CURVE('',#211,#212,#208,.T.);
#555=(LENGTH_UNIT()NAMED_UNIT(*)SI_UNIT(.MILLI.,.METRE.));
#557=(NAMED_UNIT(*)PLANE_ANGLE_UNIT()SI_UNIT($,.RADIAN.));
#560=(NAMED_UNIT(*)SI_UNIT($,.STERADIAN.)SOLID_ANGLE_UNIT());
#563=ADVANCED_BREP_SHAPE_REPRESENTATION('',(#554),#562);
#570=PRODUCT_DEFINITION('design','',#569,#566);
#571=PRODUCT_DEFINITION_SHAPE('','SHAPE FOR 3D_1980020050004_CODE-M3_N_V1_0.',
#570);
#572=SHAPE_DEFINITION_REPRESENTATION(#571,#563);
ENDSEC;
END-ISO-10303-21;
